Super Mario

General Mario Home
About Us
Contact Us
The History of Mario
Links
Hall of Fame
Forums
Wii News
Shigeru Miyamoto
Mario Toy Store
Mario Costumes
Wii Homebrew
Does Wii Homebrew Work?
Mario Chess
Mario Wall Stickers
Super Mario T-Shirt
Mario Kart Remote Control Car
Mario Christmas

Mario Downloads
Mario Cartoons
Mario Wallpapers
Mario Images
Mario Sounds
Mario Sound Tracks
Mario Sheet Music
Mario Game Sprites
TV Ads
Other Mario Downloads
Mario Booklets
Mario Screensavers
Mario Maps
Super Mario Fonts
Super Mario Guitar Tab
Mario Paint Composer

Fun Mario Stuff
Draw a Mario
Mario Gallery
Mario Flash Games
Mario Quiz
Mario Parodies
Mario Quotes
Mario Fan Art
Mario Fan Sprites
Mario merchandise
Mario Tattoos
Video Game Tattoos
Mario Subwoofer
Free Arcade
Mario Birthday Ideas
Mario Coloring Pages
Mario Musicians
Koopa's Captions
Mario Motivationals
Mario fan comics
SMB Level Editor
Mario Jokes
3D Mario
How To Draw Mario
Mario Fan Fiction
Mario Generator
Mario Paint Music
Mario Graffiti
Mario Cross Stitch
Mario Pumpkin
Mario Pinball
Ninji's NES Games
Mario Soundboard
Mario Papercraft

Nintendo Consoles
Nes
Super Nintendo
Game Boy
Nintendo 64
Nintendo DS
Game Cube
Wii
Reviews
Mario Walkthrough
Glitches 'n' Tricks
Super Mario Bros Game Genie

Mario Reference
Character Bio's
SMB3-Nes to Snes
Super Mario Movie

Mario Fan Fiction

Latest Story by ButtStink:
The Curse of Goomba Diaper Rash on a Baby Princess

Mario Friends
Cool Video Game Stuff
Super Mario Show
The Mario Bros
Boo Mansion
supermarioonline.net
Gamewise


















Mario Toy Store

Super Mario Guitar Tab

Looking for a new Mario guitar tab? You have come to the right place! Sheet music can be tough to follow, especially if you haven’t had any formal musical training, making guitar tablature an awesome (easier) way to learn your favorite songs and tunes.


Thanks to a variety of musically talented Nintendo fans we can actually bring you a collection of various Super Mario guitar tabs that you can download or view on our site and play along with.


As with all of our pages, if you have a Super Mario guitar tab that isn’t shown here please get in contact with us as we would love to share it with the world.

If you want to learn some more Mario tunes check out this great Super Mario Series for Guitar: Guitar Tabs book!

If you are completely new to guitar or just haven't played for a while you should check out this incredible free guitar course. They don't cover the Mario theme (right away anyway) but they will get you playing guitar! Go and sign up now!

Share to Facebook Share to Twitter Share to MySpace Stumble It Share to Reddit Share to Delicious More...
Mario Guitar Tab

Let's start off with a simple Super Mario Theme guitar tab:

Here is the classic intro:

E---12--12--12-----12--15--------------------
B---------------13---------------------------
G-----------------------------12-------------
D--------------------------------------------
A--------------------------------------------
E--------------------------------------------

This verse is played twice:

E---8---------5--7-6-5---------0--3-5--1-3-0------------
B------8--5-------------------------------------1-3-0---
G------------------------0------------------------------
D-------------------------------------------------------
A-------------------------------------------------------
E-------------------------------------------------------

 

These 2 "bars" are also played through twice:

E------3-2-1-----0----------------------3-2-1----0--8--8-8---
B------------4----------1-----1-3-------------4-----6--6-6---
G---------------------2-----2--------------------------------
D-------------------3----------------------------------------
A---3--------------------------------3-----------------------
E------------------------------------------------------------

E--------3-2-1------0---------------------------------------
B--------------4------------1-----1-3---4-3-1---------------
G-------------------------2-----2---------------------------
D--5--------------------3-----------------------------------
A----3-------------------------------------------------3----
E--------------------------------------------------3-3------

This lot is played through once:

E---------------0-------------------------0---------
B--1-1--1--1-3----1-------1-1--1--1-3---------------
G-------------------2-0-----------------------------
D----------------------------------------------5----
A--------------------------------------------3---3--
E---------------------------------------------------

 

E----------------0--------- E---12--12--12-----12--15---------------
B--1-1--1--1-3-----1------- B---------------13----------------------
G--------------------2--0-- G---------------------------12----------
D-------------------------- D---------------------------------------
A-------------------------- A---------------------------------------
E-------------------------- E---------------------------------------

 

E--0--------------1-1----------5-5-5-3-1---0----------
B----1---------------------------------------1--------
G------0--1-2---------2----2-------------------2-0----
D-----------------------------------------------------
A-----------------------------------------------------
E-----------------------------------------------------

 

E--0--------------1-1---------1-1-1-0-----0---------
B----1--------------------------------3-----1-------
G------0--1-2--------2-----2------------------2-0---
D---------------------------------------------------
A---------------------------------------------------
E---------------------------------------------------

 

Chop chop Mario, time is running out:

E------10--10-10--------11--11-11----------12--12-12----------13-13---
B----8----------------9-----------------10-----------------11---------
G---------------------------------------------------------------------
D---------------------------------------------------------------------
A---------------------------------------------------------------------
E---------------------------------------------------------------------

If you want to get technical, the game then plays the intro once more as follows:

E-------12--12--12-----12--15----------------
B-------------------13-----------------------
G------------------------------12------------
D--------------------------------------------
A--------------------------------------------
E--------------------------------------------

E--0------------1-1--------5-5-5-3-1---0-------------
B----1-----------------------------------1-----------
G------0--1-2--------2---2-----------------2-0-------
D----------------------------------------------------
A----------------------------------------------------
E----------------------------------------------------

E--0--------------1-1---------1-1-1-0-----0----------
B----1--------------------------------3-----1--------
G------0---1-2---------2---2------------------2-0----
D----------------------------------------------------
A----------------------------------------------------
E----------------------------------------------------

Fuzzymonkey tabs have made this awesome video showing you how to play it through:

Search Mario Mayhem

MM Newsletter

Bowser's Blog

November 24, 2014

8 awesome Super Mario World Facts!

November 17, 2014

Mario 64 facts, easter eggs and cut content bits!

Sponsors

Wii World

December 5, 2013

The importance of casinos in 007: Legends on the Wii

Poll
Mario Mayhem Poll

Who is your favourite
Mario Character?

Mario
Luigi
Toad
Peach
Yoshi
Other


Results

Draw a Mario

Follow Us

Follow Mario Mayhem on facebook

Follow Mario Mayhem on Youtube

Follow Mario Mayhem on Twitter

 
Visitors online Total users currently online - 10

©2006 - 2014 mariomayhem.com

We are in no way affiliated with Nintendo, Nintendo of America, or any other mentioned companies. Super Mario Bros. , character names and all Mario Sprites are copyrights of Nintendo Co. Ltd.
Privacy